  0
SECTION
  2
HEADER
  9
$ACADVER
  1
AC1009
  9
$INSBASE
 10
-5.146243182014316
 20
4.999999999996923
 30
0.0
  9
$EXTMIN
 10
-5.146243182014316
 20
4.999999999996923
 30
0.0
  9
$EXTMAX
 10
317.7778898072974
 20
130.97392980489
 30
0.0
  9
$LIMMIN
 10
0.0
 20
0.0
  9
$LIMMAX
 10
410.0
 20
287.0
  9
$ORTHOMODE
 70
     0
  9
$REGENMODE
 70
     1
  9
$FILLMODE
 70
     1
  9
$QTEXTMODE
 70
     0
  9
$MIRRTEXT
 70
     1
  9
$DRAGMODE
 70
     2
  9
$LTSCALE
 40
25.0
  9
$OSMODE
 70
     0
  9
$ATTMODE
 70
     1
  9
$TEXTSIZE
 40
3.5
  9
$TRACEWID
 40
1.0
  9
$TEXTSTYLE
  7
STANDARD
  9
$CLAYER
  8
0
  9
$CELTYPE
  6
BYLAYER
  9
$CECOLOR
 62
   256
  9
$DIMSCALE
 40
1.0
  9
$DIMASZ
 40
3.5
  9
$DIMEXO
 40
0.1
  9
$DIMDLI
 40
7.0
  9
$DIMRND
 40
0.0
  9
$DIMDLE
 40
0.0
  9
$DIMEXE
 40
1.8
  9
$DIMTP
 40
0.0
  9
$DIMTM
 40
0.0
  9
$DIMTXT
 40
3.5
  9
$DIMCEN
 40
1.5
  9
$DIMTSZ
 40
0.0
  9
$DIMTOL
 70
     0
  9
$DIMLIM
 70
     0
  9
$DIMTIH
 70
     0
  9
$DIMTOH
 70
     0
  9
$DIMSE1
 70
     0
  9
$DIMSE2
 70
     0
  9
$DIMTAD
 70
     0
  9
$DIMZIN
 70
     0
  9
$DIMBLK
  1

  9
$DIMASO
 70
     1
  9
$DIMSHO
 70
     0
  9
$DIMPOST
  1

  9
$DIMAPOST
  1

  9
$DIMALT
 70
     0
  9
$DIMALTD
 70
     2
  9
$DIMALTF
 40
25.39999999999999
  9
$DIMLFAC
 40
1.0
  9
$DIMTOFL
 70
     0
  9
$DIMTVP
 40
0.0
  9
$DIMTIX
 70
     0
  9
$DIMSOXD
 70
     0
  9
$DIMSAH
 70
     0
  9
$DIMBLK1
  1

  9
$DIMBLK2
  1

  9
$DIMSTYLE
  2
*UNNAMED
  9
$DIMCLRD
 70
     0
  9
$DIMCLRE
 70
     0
  9
$DIMCLRT
 70
     0
  9
$DIMTFAC
 40
1.0
  9
$DIMGAP
 40
0.09
  9
$LUNITS
 70
     2
  9
$LUPREC
 70
     2
  9
$SKETCHINC
 40
1.0
  9
$FILLETRAD
 40
0.0
  9
$AUNITS
 70
     0
  9
$AUPREC
 70
     0
  9
$MENU
  1

  9
$ELEVATION
 40
0.0
  9
$PELEVATION
 40
0.0
  9
$THICKNESS
 40
0.0
  9
$LIMCHECK
 70
     0
  9
$BLIPMODE
 70
     0
  9
$CHAMFERA
 40
0.0
  9
$CHAMFERB
 40
0.0
  9
$SKPOLY
 70
     0
  9
$TDCREATE
 40
2448529.601971874
  9
$TDUPDATE
 40
2449393.436742824
  9
$TDINDWG
 40
0.0022981481
  9
$TDUSRTIMER
 40
0.0022981481
  9
$USRTIMER
 70
     1
  9
$ANGBASE
 50
0.0
  9
$ANGDIR
 70
     0
  9
$PDMODE
 70
     0
  9
$PDSIZE
 40
0.0
  9
$PLINEWID
 40
0.0
  9
$COORDS
 70
     2
  9
$SPLFRAME
 70
     0
  9
$SPLINETYPE
 70
     6
  9
$SPLINESEGS
 70
     8
  9
$ATTDIA
 70
     0
  9
$ATTREQ
 70
     1
  9
$HANDLING
 70
     0
  9
$HANDSEED
  5
381
  9
$SURFTAB1
 70
     6
  9
$SURFTAB2
 70
     6
  9
$SURFTYPE
 70
     6
  9
$SURFU
 70
     6
  9
$SURFV
 70
     6
  9
$UCSNAME
  2

  9
$UCSORG
 10
0.0
 20
0.0
 30
0.0
  9
$UCSXDIR
 10
1.0
 20
0.0
 30
0.0
  9
$UCSYDIR
 10
0.0
 20
1.0
 30
0.0
  9
$PUCSNAME
  2

  9
$PUCSORG
 10
0.0
 20
0.0
 30
0.0
  9
$PUCSXDIR
 10
1.0
 20
0.0
 30
0.0
  9
$PUCSYDIR
 10
0.0
 20
1.0
 30
0.0
  9
$USERI1
 70
     0
  9
$USERI2
 70
     0
  9
$USERI3
 70
     0
  9
$USERI4
 70
     0
  9
$USERI5
 70
     0
  9
$USERR1
 40
1.0
  9
$USERR2
 40
0.0
  9
$USERR3
 40
0.0
  9
$USERR4
 40
0.0
  9
$USERR5
 40
0.0
  9
$WORLDVIEW
 70
     1
  9
$SHADEDGE
 70
     3
  9
$SHADEDIF
 70
    70
  9
$TILEMODE
 70
     1
  9
$MAXACTVP
 70
    16
  9
$PINSBASE
 10
0.0
 20
0.0
 30
0.0
  9
$PLIMCHECK
 70
     0
  9
$PEXTMIN
 10
1.000000000000000E+20
 20
1.000000000000000E+20
 30
1.000000000000000E+20
  9
$PEXTMAX
 10
-1.000000000000000E+20
 20
-1.000000000000000E+20
 30
-1.000000000000000E+20
  9
$PLIMMIN
 10
0.0
 20
0.0
  9
$PLIMMAX
 10
12.0
 20
9.0
  9
$UNITMODE
 70
     0
  9
$VISRETAIN
 70
     0
  9
$PLINEGEN
 70
     0
  9
$PSLTSCALE
 70
     0
  9
$TREEDEPTH
 70
  3020
  9
$DWGCODEPAGE
  3
undefined
  0
ENDSEC
  0
SECTION
  2
TABLES
  0
TABLE
  2
VPORT
 70
     2
  0
VPORT
  2
*ACTIVE
 70
     0
 10
0.0
 20
0.0
 11
1.0
 21
1.0
 12
156.3158233126415
 22
131.5698402606381
 13
0.0
 23
0.0
 14
1.0
 24
1.0
 15
10.0
 25
10.0
 16
0.0
 26
0.0
 36
1.0
 17
0.0
 27
0.0
 37
0.0
 40
253.1396805212825
 41
1.275675675675675
 42
50.0
 43
0.0
 44
0.0
 50
0.0
 51
0.0
 71
     0
 72
 20000
 73
     1
 74
     1
 75
     0
 76
     0
 77
     0
 78
     0
  0
ENDTAB
  0
TABLE
  2
LTYPE
 70
     3
  0
LTYPE
  2
CONTINUOUS
 70
    64
  3
Ausgezogene Linie
 72
    65
 73
     0
 40
0.0
  0
LTYPE
  2
ITEM-STRICHGR
 70
    64
  3
-- -- -- -- -- 
 72
    65
 73
     2
 40
6.25
 49
5.0
 49
-1.25
  0
LTYPE
  2
ITEM-STRICHPGR
 70
    64
  3
____ . ____ . ____ . ____ . ____ . ____ . ____
 72
    65
 73
     4
 40
15.0
 49
10.0
 49
-2.5
 49
0.0
 49
-2.5
  0
ENDTAB
  0
TABLE
  2
LAYER
 70
     6
  0
LAYER
  2
0
 70
     0
 62
     7
  6
CONTINUOUS
  0
LAYER
  2
ITEM_50
 70
    64
 62
     7
  6
CONTINUOUS
  0
LAYER
  2
ITEM_25
 70
    64
 62
     3
  6
CONTINUOUS
  0
LAYER
  2
ITEM_HILFE
 70
    64
 62
     3
  6
CONTINUOUS
  0
LAYER
  2
ITEM_STPG
 70
    64
 62
     4
  6
ITEM-STRICHPGR
  0
LAYER
  2
ITEM_GSTRG
 70
    64
 62
     6
  6
ITEM-STRICHGR
  0
ENDTAB
  0
TABLE
  2
STYLE
 70
     1
  0
STYLE
  2
STANDARD
 70
     0
 40
0.0
 41
1.0
 50
0.0
 71
     0
 42
3.5
  3
txt
  4

  0
ENDTAB
  0
TABLE
  2
VIEW
 70
     0
  0
ENDTAB
  0
TABLE
  2
UCS
 70
     0
  0
ENDTAB
  0
TABLE
  2
APPID
 70
     1
  0
APPID
  2
ACAD
 70
    64
  0
ENDTAB
  0
TABLE
  2
DIMSTYLE
 70
     0
  0
ENDTAB
  0
ENDSEC
  0
SECTION
  2
BLOCKS
  0
ENDSEC
  0
SECTION
  2
ENTITIES
  0
POINT
  8
ITEM_HILFE
 10
315.8273109617671
 20
59.99999999999387
 30
0.0
  0
POINT
  8
ITEM_HILFE
 10
315.8273109617671
 20
78.99999999999387
 30
0.0
  0
POINT
  8
ITEM_HILFE
 10
311.8273109617671
 20
71.99999999999387
 30
0.0
  0
POINT
  8
ITEM_HILFE
 10
295.8273109617671
 20
78.9999999999939
 30
0.0
  0
POINT
  8
ITEM_HILFE
 10
295.8273109617671
 20
71.99999999999387
 30
0.0
  0
POINT
  8
ITEM_HILFE
 10
295.8273109617671
 20
59.99999999999387
 30
0.0
  0
POINT
  8
ITEM_HILFE
 10
275.8273109617671
 20
59.99999999999387
 30
0.0
  0
POINT
  8
ITEM_HILFE
 10
279.8273109617671
 20
71.99999999999387
 30
0.0
  0
POINT
  8
ITEM_HILFE
 10
275.8273109617671
 20
78.99999999999387
 30
0.0
  0
LINE
  8
ITEM_STPG
 10
295.8273109617671
 20
83.99999999999387
 30
0.0
 11
295.8273109617671
 21
55.37612343969659
 31
0.0
  0
CIRCLE
  8
ITEM_50
 10
311.8273109617671
 20
71.99999999999387
 30
0.0
 40
3.049999999999999
  0
CIRCLE
  8
ITEM_50
 10
279.8273109617671
 20
71.99999999999387
 30
0.0
 40
3.049999999999999
  0
LINE
  8
ITEM_50
 10
277.8273109617671
 20
59.99999999999387
 30
0.0
 11
313.8273109617671
 21
59.99999999999387
 31
0.0
  0
ARC
  8
ITEM_50
 10
277.8273109617671
 20
76.99999999999387
 30
0.0
 40
2.0
 50
90.0
 51
180.0
  0
LINE
  8
ITEM_50
 10
275.8273109617671
 20
61.99999999999387
 30
0.0
 11
275.8273109617671
 21
76.99999999999387
 31
0.0
  0
ARC
  8
ITEM_50
 10
277.8273109617671
 20
61.99999999999387
 30
0.0
 40
2.0
 50
180.0
 51
270.0
  0
ARC
  8
ITEM_50
 10
313.8273109617671
 20
61.99999999999387
 30
0.0
 40
2.0
 50
270.0
 51
0.0
  0
LINE
  8
ITEM_50
 10
315.8273109617671
 20
76.99999999999387
 30
0.0
 11
315.8273109617671
 21
61.99999999999387
 31
0.0
  0
ARC
  8
ITEM_50
 10
313.8273109617671
 20
76.99999999999387
 30
0.0
 40
2.0
 50
0.0
 51
90.0
  0
LINE
  8
ITEM_50
 10
277.8273109617671
 20
78.99999999999387
 30
0.0
 11
313.8273109617671
 21
78.99999999999387
 31
0.0
  0
LINE
  8
ITEM_STPG
 10
273.3830354436105
 20
71.99999999999387
 30
0.0
 11
317.7778898072974
 21
71.99999999999387
 31
0.0
  0
POINT
  8
ITEM_HILFE
 10
260.0
 20
59.00000000000002
 30
0.0
  0
POINT
  8
ITEM_HILFE
 10
250.0
 20
59.0
 30
0.0
  0
POINT
  8
ITEM_HILFE
 10
240.0
 20
59.0
 30
0.0
  0
POINT
  8
ITEM_HILFE
 10
250.0
 20
60.0
 30
0.0
  0
POINT
  8
ITEM_HILFE
 10
240.0
 20
60.0
 30
0.0
  0
POINT
  8
ITEM_HILFE
 10
260.0
 20
60.00000000000002
 30
0.0
  0
POINT
  8
ITEM_HILFE
 10
239.9999999999999
 20
72.00000000000315
 30
0.0
  0
POINT
  8
ITEM_HILFE
 10
254.0
 20
72.00000000000318
 30
0.0
  0
POINT
  8
ITEM_HILFE
 10
250.0
 20
72.00000000000315
 30
0.0
  0
POINT
  8
ITEM_HILFE
 10
260.0
 20
79.00000000000002
 30
0.0
  0
POINT
  8
ITEM_HILFE
 10
250.0
 20
79.00000000000002
 30
0.0
  0
POINT
  8
ITEM_HILFE
 10
240.0
 20
79.00000000000002
 30
0.0
  0
LINE
  8
ITEM_50
 10
254.0
 20
75.4641016151441
 30
0.0
 11
260.0000000000032
 21
75.4641016151441
 31
0.0
  0
LINE
  8
ITEM_50
 10
254.0
 20
68.53589838486851
 30
0.0
 11
254.0
 21
75.4641016151441
 31
0.0
  0
LINE
  8
ITEM_50
 10
260.0000000000032
 20
68.53589838486851
 30
0.0
 11
254.0
 21
68.53589838486851
 31
0.0
  0
LINE
  8
ITEM_50
 10
258.0
 20
59.99999999999997
 30
0.0
 11
242.0
 21
60.0
 31
0.0
  0
LINE
  8
ITEM_50
 10
242.0
 20
79.0
 30
0.0
 11
258.0
 21
79.0
 31
0.0
  0
ARC
  8
ITEM_50
 10
242.0
 20
77.0
 30
0.0
 40
2.0
 50
90.0
 51
180.0
  0
LINE
  8
ITEM_50
 10
240.0
 20
62.0
 30
0.0
 11
240.0
 21
77.0
 31
0.0
  0
ARC
  8
ITEM_50
 10
242.0
 20
62.0
 30
0.0
 40
2.0
 50
180.0
 51
270.0
  0
ARC
  8
ITEM_50
 10
258.0
 20
61.99999999999997
 30
0.0
 40
2.0
 50
270.0
 51
0.0
  0
LINE
  8
ITEM_50
 10
260.0
 20
77.0
 30
0.0
 11
260.0
 21
61.99999999999997
 31
0.0
  0
ARC
  8
ITEM_50
 10
258.0
 20
77.0
 30
0.0
 40
2.0
 50
0.0
 51
90.0
  0
LINE
  8
ITEM_STPG
 10
250.0
 20
84.00000000000002
 30
0.0
 11
250.0
 21
54.99999999999997
 31
0.0
  0
LINE
  8
ITEM_STPG
 10
262.7845431790603
 20
72.00000000000312
 30
0.0
 11
237.0056934153311
 21
72.00000000000312
 31
0.0
  0
POINT
  8
ITEM_HILFE
 10
204.8210785406174
 20
71.99999999999387
 30
0.0
  0
POINT
  8
ITEM_HILFE
 10
224.8210785406174
 20
59.99999999999387
 30
0.0
  0
POINT
  8
ITEM_HILFE
 10
224.8210785406174
 20
78.99999999999387
 30
0.0
  0
POINT
  8
ITEM_HILFE
 10
204.8210785406174
 20
59.99999999999387
 30
0.0
  0
POINT
  8
ITEM_HILFE
 10
204.8210785406174
 20
78.9999999999939
 30
0.0
  0
POINT
  8
ITEM_HILFE
 10
220.8210785406174
 20
71.99999999999387
 30
0.0
  0
POINT
  8
ITEM_HILFE
 10
188.8210785406174
 20
71.99999999999387
 30
0.0
  0
POINT
  8
ITEM_HILFE
 10
184.8210785406174
 20
59.99999999999387
 30
0.0
  0
POINT
  8
ITEM_HILFE
 10
184.8210785406174
 20
78.99999999999387
 30
0.0
  0
LINE
  8
ITEM_50
 10
186.8210785406174
 20
78.99999999999387
 30
0.0
 11
222.8210785406174
 21
78.99999999999387
 31
0.0
  0
ARC
  8
ITEM_50
 10
222.8210785406174
 20
76.99999999999387
 30
0.0
 40
2.0
 50
0.0
 51
90.0
  0
LINE
  8
ITEM_50
 10
224.8210785406174
 20
76.99999999999387
 30
0.0
 11
224.8210785406174
 21
61.99999999999387
 31
0.0
  0
ARC
  8
ITEM_50
 10
222.8210785406174
 20
61.99999999999387
 30
0.0
 40
2.0
 50
270.0
 51
0.0
  0
ARC
  8
ITEM_50
 10
186.8210785406174
 20
61.99999999999387
 30
0.0
 40
2.0
 50
180.0
 51
270.0
  0
LINE
  8
ITEM_50
 10
184.8210785406174
 20
61.99999999999387
 30
0.0
 11
184.8210785406174
 21
76.99999999999387
 31
0.0
  0
ARC
  8
ITEM_50
 10
186.8210785406174
 20
76.99999999999387
 30
0.0
 40
2.0
 50
90.0
 51
180.0
  0
LINE
  8
ITEM_50
 10
186.8210785406174
 20
59.99999999999387
 30
0.0
 11
222.8210785406174
 21
59.99999999999387
 31
0.0
  0
CIRCLE
  8
ITEM_50
 10
188.8210785406174
 20
71.99999999999387
 30
0.0
 40
3.049999999999999
  0
CIRCLE
  8
ITEM_50
 10
220.8210785406174
 20
71.99999999999387
 30
0.0
 40
3.049999999999999
  0
LINE
  8
ITEM_STPG
 10
204.8210785406174
 20
83.99999999999387
 30
0.0
 11
204.8210785406174
 21
55.37612343969659
 31
0.0
  0
LINE
  8
ITEM_50
 10
184.8210785406174
 20
75.46410161513155
 30
0.0
 11
188.8210785406174
 21
77.77350269189004
 31
0.0
  0
LINE
  8
ITEM_50
 10
188.8210785406174
 20
77.77350269189004
 30
0.0
 11
193.8210785406174
 21
74.88675134594201
 31
0.0
  0
LINE
  8
ITEM_50
 10
193.8210785406174
 20
74.88675134594201
 30
0.0
 11
193.8210785406174
 21
69.11324865404573
 31
0.0
  0
LINE
  8
ITEM_50
 10
193.8210785406174
 20
69.11324865404573
 30
0.0
 11
188.8210785406174
 21
66.22649730809759
 31
0.0
  0
LINE
  8
ITEM_50
 10
188.8210785406174
 20
66.22649730809759
 30
0.0
 11
184.8210785406174
 21
68.53589838485608
 31
0.0
  0
LINE
  8
ITEM_50
 10
215.8210785406174
 20
74.88675134594201
 30
0.0
 11
220.8210785406174
 21
77.77350269189004
 31
0.0
  0
LINE
  8
ITEM_50
 10
220.8210785406174
 20
77.77350269189004
 30
0.0
 11
224.8210785406174
 21
75.46410161513166
 31
0.0
  0
LINE
  8
ITEM_50
 10
224.8210785406174
 20
68.53589838485608
 30
0.0
 11
220.8210785406174
 21
66.22649730809759
 31
0.0
  0
LINE
  8
ITEM_50
 10
220.8210785406174
 20
66.22649730809759
 30
0.0
 11
215.8210785406174
 21
69.11324865404573
 31
0.0
  0
LINE
  8
ITEM_50
 10
215.8210785406174
 20
69.11324865404573
 30
0.0
 11
215.8210785406174
 21
74.88675134594201
 31
0.0
  0
LINE
  8
ITEM_STPG
 10
182.5219888183774
 20
71.99999999999387
 30
0.0
 11
226.9168431820642
 21
71.99999999999387
 31
0.0
  0
CIRCLE
  8
ITEM_50
 10
249.9999999999969
 20
29.99999999999691
 30
0.0
 40
5.0
  0
LINE
  8
ITEM_GSTRG
 10
253.9999999999968
 20
13.99999999999689
 30
0.0
 11
259.9999999999968
 21
13.99999999999685
 31
0.0
  0
LINE
  8
ITEM_GSTRG
 10
253.9999999999968
 20
10.94999999999688
 30
0.0
 11
240.2977955469413
 21
10.94999999999689
 31
0.0
  0
LINE
  8
ITEM_GSTRG
 10
239.9999999999969
 20
17.04999999999689
 30
0.0
 11
253.9999999999969
 21
17.04999999999687
 31
0.0
  0
LINE
  8
ITEM_GSTRG
 10
253.9999999999969
 20
18.99999999999694
 30
0.0
 11
253.9999999999968
 21
9.999999999996894
 31
0.0
  0
LINE
  8
ITEM_GSTRG
 10
253.9999999999969
 20
18.99999999999694
 30
0.0
 11
259.9999999999968
 21
18.99999999999693
 31
0.0
  0
LINE
  8
ITEM_STPG
 10
265.5823029041017
 20
14.2707966444044
 30
0.0
 11
235.5823029041016
 21
14.27079664440444
 31
0.0
  0
LINE
  8
ITEM_GSTRG
 10
253.9999999999969
 20
40.99999999999686
 30
0.0
 11
253.9999999999968
 21
49.99999999999692
 31
0.0
  0
LINE
  8
ITEM_GSTRG
 10
239.9999999999969
 20
42.94999999999694
 30
0.0
 11
253.9999999999969
 21
42.94999999999694
 31
0.0
  0
LINE
  8
ITEM_GSTRG
 10
253.9999999999969
 20
49.04999999999693
 30
0.0
 11
240.2977955469413
 21
49.04999999999693
 31
0.0
  0
LINE
  8
ITEM_GSTRG
 10
253.9999999999969
 20
40.99999999999686
 30
0.0
 11
259.9999999999968
 21
40.99999999999686
 31
0.0
  0
LINE
  8
ITEM_GSTRG
 10
253.9999999999969
 20
45.99999999999692
 30
0.0
 11
259.9999999999968
 21
45.99999999999695
 31
0.0
  0
LINE
  8
ITEM_STPG
 10
265.5823029041017
 20
46.27079664440444
 30
0.0
 11
235.5823029041017
 21
46.27079664440444
 31
0.0
  0
POINT
  8
ITEM_HILFE
 10
259.9999999999968
 20
29.9999999999969
 30
0.0
  0
POINT
  8
ITEM_HILFE
 10
239.9999999999969
 20
29.99999999999691
 30
0.0
  0
POINT
  8
ITEM_HILFE
 10
249.9999999999969
 20
29.99999999999691
 30
0.0
  0
POINT
  8
ITEM_HILFE
 10
259.9999999999968
 20
49.99999999999692
 30
0.0
  0
POINT
  8
ITEM_HILFE
 10
239.9999999999969
 20
49.99999999999689
 30
0.0
  0
POINT
  8
ITEM_HILFE
 10
239.9999999999969
 20
9.999999999996951
 30
0.0
  0
POINT
  8
ITEM_HILFE
 10
259.9999999999968
 20
9.999999999996894
 30
0.0
  0
ARC
  8
ITEM_50
 10
257.9999999999968
 20
11.99999999999689
 30
0.0
 40
2.0
 50
270.0
 51
0.0
  0
ARC
  8
ITEM_50
 10
257.9999999999968
 20
47.99999999999692
 30
0.0
 40
2.0
 50
0.0
 51
90.0
  0
ARC
  8
ITEM_50
 10
241.9999999999969
 20
47.99999999999689
 30
0.0
 40
2.0
 50
90.0
 51
180.0
  0
ARC
  8
ITEM_50
 10
241.9999999999969
 20
11.99999999999694
 30
0.0
 40
2.0
 50
180.0
 51
211.668243253528
  0
ARC
  8
ITEM_50
 10
241.9999999999969
 20
11.99999999999694
 30
0.0
 40
2.0
 50
211.668243253528
 51
270.0
  0
LINE
  8
ITEM_STPG
 10
249.9999999999969
 20
4.999999999996923
 30
0.0
 11
249.9999999999969
 21
54.99999999999692
 31
0.0
  0
LINE
  8
ITEM_50
 10
241.9999999999969
 20
9.999999999996951
 30
0.0
 11
257.9999999999968
 21
9.999999999996894
 31
0.0
  0
LINE
  8
ITEM_50
 10
259.9999999999968
 20
11.99999999999689
 30
0.0
 11
259.9999999999968
 21
47.99999999999692
 31
0.0
  0
LINE
  8
ITEM_50
 10
257.9999999999968
 20
49.99999999999692
 30
0.0
 11
241.9999999999969
 21
49.99999999999689
 31
0.0
  0
LINE
  8
ITEM_50
 10
239.9999999999969
 20
47.99999999999689
 30
0.0
 11
239.9999999999969
 21
11.99999999999695
 31
0.0
  0
LINE
  8
ITEM_STPG
 10
262.7845431790571
 20
29.99999999999691
 30
0.0
 11
237.0056934153279
 21
29.99999999999691
 31
0.0
  0
LINE
  8
ITEM_50
 10
251.443375672971
 20
27.49999999999691
 30
0.0
 11
252.886751345945
 21
29.99999999999691
 31
0.0
  0
LINE
  8
ITEM_50
 10
252.886751345945
 20
29.99999999999691
 30
0.0
 11
251.443375672971
 21
32.49999999999691
 31
0.0
  0
LINE
  8
ITEM_50
 10
251.443375672971
 20
32.49999999999691
 30
0.0
 11
248.5566243270228
 21
32.49999999999691
 31
0.0
  0
LINE
  8
ITEM_50
 10
248.5566243270228
 20
32.49999999999691
 30
0.0
 11
247.1132486540487
 21
29.99999999999691
 31
0.0
  0
LINE
  8
ITEM_50
 10
247.1132486540487
 20
29.99999999999691
 30
0.0
 11
248.5566243270228
 21
27.49999999999691
 31
0.0
  0
LINE
  8
ITEM_50
 10
248.5566243270228
 20
27.49999999999691
 30
0.0
 11
251.443375672971
 21
27.49999999999691
 31
0.0
  0
POINT
  8
ITEM_HILFE
 10
144.9640648982918
 20
71.99999999999693
 30
0.0
  0
POINT
  8
ITEM_HILFE
 10
112.9640648982919
 20
71.99999999999693
 30
0.0
  0
POINT
  8
ITEM_HILFE
 10
128.9640648982919
 20
71.99999999999693
 30
0.0
  0
POINT
  8
ITEM_HILFE
 10
148.9640648982919
 20
59.99999999999693
 30
0.0
  0
POINT
  8
ITEM_HILFE
 10
148.9640648982919
 20
78.99999999999693
 30
0.0
  0
POINT
  8
ITEM_HILFE
 10
108.9640648982919
 20
59.99999999999693
 30
0.0
  0
POINT
  8
ITEM_HILFE
 10
128.9640648982919
 20
59.99999999999698
 30
0.0
  0
POINT
  8
ITEM_HILFE
 10
128.9640648982919
 20
78.99999999999693
 30
0.0
  0
POINT
  8
ITEM_HILFE
 10
108.9640648982919
 20
78.99999999999693
 30
0.0
  0
LINE
  8
ITEM_STPG
 10
106.6649751760518
 20
71.99999999999693
 30
0.0
 11
151.0598295397387
 21
71.99999999999693
 31
0.0
  0
LINE
  8
ITEM_50
 10
110.9640648982919
 20
78.99999999999693
 30
0.0
 11
146.9640648982918
 21
78.99999999999693
 31
0.0
  0
ARC
  8
ITEM_50
 10
146.9640648982918
 20
76.99999999999693
 30
0.0
 40
2.0
 50
0.0
 51
90.0
  0
LINE
  8
ITEM_50
 10
148.9640648982918
 20
76.99999999999693
 30
0.0
 11
148.9640648982918
 21
61.99999999999693
 31
0.0
  0
ARC
  8
ITEM_50
 10
146.9640648982918
 20
61.99999999999693
 30
0.0
 40
2.0
 50
270.0
 51
0.0
  0
ARC
  8
ITEM_50
 10
110.9640648982919
 20
61.99999999999693
 30
0.0
 40
2.0
 50
180.0
 51
270.0
  0
LINE
  8
ITEM_50
 10
108.9640648982919
 20
61.99999999999693
 30
0.0
 11
108.9640648982919
 21
76.99999999999693
 31
0.0
  0
ARC
  8
ITEM_50
 10
110.9640648982919
 20
76.99999999999693
 30
0.0
 40
2.0
 50
90.0
 51
180.0
  0
LINE
  8
ITEM_50
 10
116.4640648982919
 20
59.99999999999693
 30
0.0
 11
116.4640648982919
 21
64.49999999999693
 31
0.0
  0
LINE
  8
ITEM_50
 10
116.4640648982919
 20
64.49999999999693
 30
0.0
 11
141.4640648982919
 21
64.49999999999693
 31
0.0
  0
LINE
  8
ITEM_50
 10
141.4640648982919
 20
64.49999999999693
 30
0.0
 11
141.4640648982919
 21
59.99999999999693
 31
0.0
  0
LINE
  8
ITEM_50
 10
110.9640648982919
 20
59.99999999999693
 30
0.0
 11
146.9640648982918
 21
59.99999999999693
 31
0.0
  0
CIRCLE
  8
ITEM_50
 10
112.9640648982919
 20
71.99999999999693
 30
0.0
 40
3.049999999999999
  0
CIRCLE
  8
ITEM_50
 10
144.9640648982918
 20
71.99999999999693
 30
0.0
 40
3.049999999999999
  0
LINE
  8
ITEM_STPG
 10
128.9640648982919
 20
83.99999999999693
 30
0.0
 11
128.9640648982919
 21
55.37612343969965
 31
0.0
  0
LINE
  8
ITEM_50
 10
108.9640648982919
 20
75.4641016151346
 30
0.0
 11
112.9640648982919
 21
77.77350269189309
 31
0.0
  0
LINE
  8
ITEM_50
 10
112.9640648982919
 20
77.77350269189309
 30
0.0
 11
117.9640648982919
 21
74.88675134594507
 31
0.0
  0
LINE
  8
ITEM_50
 10
117.9640648982919
 20
74.88675134594507
 30
0.0
 11
117.9640648982919
 21
69.11324865404878
 31
0.0
  0
LINE
  8
ITEM_50
 10
117.9640648982919
 20
69.11324865404878
 30
0.0
 11
112.9640648982919
 21
66.22649730810064
 31
0.0
  0
LINE
  8
ITEM_50
 10
112.9640648982919
 20
66.22649730810064
 30
0.0
 11
108.9640648982919
 21
68.53589838485913
 31
0.0
  0
LINE
  8
ITEM_50
 10
139.9640648982919
 20
74.88675134594507
 30
0.0
 11
144.9640648982919
 21
77.77350269189309
 31
0.0
  0
LINE
  8
ITEM_50
 10
144.9640648982919
 20
77.77350269189309
 30
0.0
 11
148.9640648982918
 21
75.46410161513472
 31
0.0
  0
LINE
  8
ITEM_50
 10
148.9640648982918
 20
68.53589838485913
 30
0.0
 11
144.9640648982919
 21
66.22649730810064
 31
0.0
  0
LINE
  8
ITEM_50
 10
144.9640648982919
 20
66.22649730810064
 30
0.0
 11
139.9640648982919
 21
69.11324865404878
 31
0.0
  0
LINE
  8
ITEM_50
 10
139.9640648982919
 20
69.11324865404878
 30
0.0
 11
139.9640648982919
 21
74.88675134594507
 31
0.0
  0
POINT
  8
ITEM_HILFE
 10
93.99999999999994
 20
59.0
 30
0.0
  0
POINT
  8
ITEM_HILFE
 10
60.0
 20
59.0
 30
0.0
  0
POINT
  8
ITEM_HILFE
 10
50.99999999999994
 20
59.0
 30
0.0
  0
POINT
  8
ITEM_HILFE
 10
93.99999999999994
 20
72.0
 30
0.0
  0
POINT
  8
ITEM_HILFE
 10
50.99999999999994
 20
72.0
 30
0.0
  0
POINT
  8
ITEM_HILFE
 10
50.99999999999994
 20
60.0
 30
0.0
  0
POINT
  8
ITEM_HILFE
 10
60.0
 20
60.0
 30
0.0
  0
POINT
  8
ITEM_HILFE
 10
93.99999999999994
 20
60.0
 30
0.0
  0
POINT
  8
ITEM_HILFE
 10
93.99999999999994
 20
79.0
 30
0.0
  0
POINT
  8
ITEM_HILFE
 10
60.0
 20
79.0
 30
0.0
  0
POINT
  8
ITEM_HILFE
 10
50.99999999999994
 20
79.0
 30
0.0
  0
ARC
  8
ITEM_50
 10
92.0
 20
77.0
 30
0.0
 40
2.0
 50
0.0
 51
90.00000000000005
  0
LINE
  8
ITEM_50
 10
94.0
 20
77.0
 30
0.0
 11
94.0
 21
62.0
 31
0.0
  0
ARC
  8
ITEM_50
 10
92.0
 20
62.0
 30
0.0
 40
2.0
 50
270.0
 51
0.0
  0
LINE
  8
ITEM_50
 10
53.0
 20
60.0
 30
0.0
 11
92.0
 21
60.0
 31
0.0
  0
ARC
  8
ITEM_50
 10
53.0
 20
62.0
 30
0.0
 40
2.0
 50
180.0
 51
270.0
  0
ARC
  8
ITEM_50
 10
53.0
 20
77.0
 30
0.0
 40
2.0
 50
90.00000000000005
 51
180.0
  0
LINE
  8
ITEM_STPG
 10
60.0
 20
83.0
 30
0.0
 11
60.0
 21
56.30079235111224
 31
0.0
  0
ARC
  8
ITEM_50
 10
92.5
 20
63.49999999999988
 30
0.0
 40
1.5
 50
0.0
 51
0.0
  0
LINE
  8
ITEM_50
 10
94.0
 20
63.49999999999988
 30
0.0
 11
94.0
 21
62.0
 31
0.0
  0
LINE
  8
ITEM_STPG
 10
47.98398239681273
 20
72.0
 30
0.0
 11
97.98417704148533
 21
72.0
 31
0.0
  0
CIRCLE
  8
ITEM_50
 10
83.99999999999778
 20
63.00000000000216
 30
0.0
 40
2.0
  0
LINE
  8
ITEM_50
 10
92.0
 20
79.0
 30
0.0
 11
53.0
 21
79.0
 31
0.0
  0
LINE
  8
ITEM_50
 10
51.0
 20
77.0
 30
0.0
 11
51.0
 21
62.0
 31
0.0
  0
LINE
  8
ITEM_50
 10
51.0
 20
68.53589838486539
 30
0.0
 11
57.00000000000312
 21
68.53589838486539
 31
0.0
  0
LINE
  8
ITEM_50
 10
57.00000000000312
 20
68.53589838486539
 30
0.0
 11
57.00000000000312
 21
75.46410161514097
 31
0.0
  0
LINE
  8
ITEM_50
 10
57.00000000000312
 20
75.46410161514097
 30
0.0
 11
51.0
 21
75.46410161514097
 31
0.0
  0
LINE
  8
ITEM_HILFE
 10
65.7000000000001
 20
64.5
 30
0.0
 11
51.0
 21
64.5
 31
0.0
  0
LINE
  8
ITEM_HILFE
 10
66.90577136594021
 20
60.0
 30
0.0
 11
53.0
 21
60.0
 31
0.0
  0
LINE
  8
ITEM_HILFE
 10
66.90577136594021
 20
60.0
 30
0.0
 11
88.25000000000096
 21
72.32309614751977
 31
0.0
  0
LINE
  8
ITEM_HILFE
 10
65.7000000000001
 20
64.5
 30
0.0
 11
86.00000000000096
 21
76.22021046454983
 31
0.0
  0
LINE
  8
ITEM_HILFE
 10
86.00000000000096
 20
76.22021046454983
 30
0.0
 11
88.25000000000096
 21
72.32309614751977
 31
0.0
  0
LINE
  8
ITEM_GSTRG
 10
56.9999999999969
 20
18.99999999999711
 30
0.0
 11
50.99999999999687
 21
18.99999999999711
 31
0.0
  0
LINE
  8
ITEM_GSTRG
 10
56.99999999999693
 20
49.04999999999689
 30
0.0
 11
93.70220445304946
 21
49.04999999999672
 31
0.0
  0
LINE
  8
ITEM_GSTRG
 10
93.99999999999687
 20
42.94999999999687
 30
0.0
 11
56.9999999999969
 21
42.94999999999687
 31
0.0
  0
LINE
  8
ITEM_GSTRG
 10
56.99999999999693
 20
45.99999999999683
 30
0.0
 11
50.99999999999693
 21
45.99999999999688
 31
0.0
  0
LINE
  8
ITEM_GSTRG
 10
56.9999999999969
 20
40.99999999999683
 30
0.0
 11
50.99999999999687
 21
40.99999999999683
 31
0.0
  0
LINE
  8
ITEM_GSTRG
 10
56.9999999999969
 20
40.99999999999683
 30
0.0
 11
56.99999999999695
 21
49.99999999999683
 31
0.0
  0
LINE
  8
ITEM_GSTRG
 10
56.9999999999969
 20
13.99999999999683
 30
0.0
 11
50.9999999999969
 21
13.99999999999683
 31
0.0
  0
LINE
  8
ITEM_GSTRG
 10
56.9999999999969
 20
18.99999999999682
 30
0.0
 11
56.99999999999693
 21
9.999999999996831
 31
0.0
  0
LINE
  8
ITEM_GSTRG
 10
93.99999999999687
 20
17.04999999999678
 30
0.0
 11
56.9999999999969
 21
17.04999999999678
 31
0.0
  0
LINE
  8
ITEM_GSTRG
 10
56.9999999999969
 20
10.94999999999687
 30
0.0
 11
93.70220445304514
 21
10.94999999999687
 31
0.0
  0
POINT
  8
ITEM_HILFE
 10
50.9999999999969
 20
13.999999999997
 30
0.0
  0
POINT
  8
ITEM_HILFE
 10
50.9999999999969
 20
45.99999999999694
 30
0.0
  0
POINT
  8
ITEM_HILFE
 10
93.99999999999687
 20
45.99999999999694
 30
0.0
  0
POINT
  8
ITEM_HILFE
 10
93.9999999999969
 20
13.999999999997
 30
0.0
  0
POINT
  8
ITEM_HILFE
 10
50.99999999999687
 20
49.99999999999677
 30
0.0
  0
POINT
  8
ITEM_HILFE
 10
50.99999999999687
 20
9.999999999996887
 30
0.0
  0
POINT
  8
ITEM_HILFE
 10
50.99999999999687
 20
29.99999999999688
 30
0.0
  0
POINT
  8
ITEM_HILFE
 10
59.99999999999693
 20
29.99999999999694
 30
0.0
  0
POINT
  8
ITEM_HILFE
 10
93.99999999999687
 20
49.99999999999677
 30
0.0
  0
POINT
  8
ITEM_HILFE
 10
93.99999999999687
 20
29.99999999999688
 30
0.0
  0
POINT
  8
ITEM_HILFE
 10
93.99999999999687
 20
9.999999999996887
 30
0.0
  0
LINE
  8
ITEM_50
 10
93.9999999999969
 20
17.49999999999694
 30
0.0
 11
93.99999999999468
 21
42.49999999999688
 31
0.0
  0
LINE
  8
ITEM_50
 10
93.99999999999687
 20
42.49999999999688
 30
0.0
 11
93.99999999999687
 21
47.99999999999694
 31
0.0
  0
LINE
  8
ITEM_50
 10
90.81473670974364
 20
42.49999999999688
 30
0.0
 11
90.81473670974364
 21
17.49999999999694
 31
0.0
  0
LINE
  8
ITEM_STPG
 10
97.12306588428424
 20
29.99999999999694
 30
0.0
 11
47.73014549953927
 21
29.99999999999694
 31
0.0
  0
LINE
  8
ITEM_STPG
 10
97.12306588428424
 20
13.999999999997
 30
0.0
 11
47.82939855180154
 21
13.999999999997
 31
0.0
  0
LINE
  8
ITEM_STPG
 10
97.12306588428424
 20
45.99999999999694
 30
0.0
 11
47.73014549953927
 21
45.99999999999694
 31
0.0
  0
LINE
  8
ITEM_STPG
 10
59.99999999999693
 20
52.11135128961952
 30
0.0
 11
59.99999999999693
 21
8.026070195103855
 31
0.0
  0
ARC
  8
ITEM_25
 10
59.99999999999693
 20
29.99999999999699
 30
0.0
 40
4.0
 50
171.0000000000002
 51
99.00000000000005
  0
CIRCLE
  8
ITEM_50
 10
59.99999999999693
 20
29.99999999999699
 30
0.0
 40
3.325
  0
LINE
  8
ITEM_50
 10
90.81473670974364
 20
42.49999999999688
 30
0.0
 11
93.99999999999468
 21
42.49999999999688
 31
0.0
  0
LINE
  8
ITEM_50
 10
90.81473670974364
 20
17.499999999997
 30
0.0
 11
93.99999999999468
 21
17.49999999999694
 31
0.0
  0
ARC
  8
ITEM_50
 10
52.99999999999687
 20
11.99999999999699
 30
0.0
 40
2.0
 50
180.0
 51
270.0
  0
LINE
  8
ITEM_50
 10
50.99999999999687
 20
47.99999999999694
 30
0.0
 11
50.99999999999687
 21
11.999999999997
 31
0.0
  0
ARC
  8
ITEM_50
 10
52.99999999999687
 20
47.99999999999694
 30
0.0
 40
2.0
 50
90.0
 51
180.0
  0
LINE
  8
ITEM_50
 10
91.99999999999687
 20
49.99999999999694
 30
0.0
 11
52.99999999999687
 21
49.99999999999694
 31
0.0
  0
ARC
  8
ITEM_50
 10
91.99999999999687
 20
47.99999999999694
 30
0.0
 40
2.0
 50
0.0
 51
90.0
  0
LINE
  8
ITEM_50
 10
93.99999999999693
 20
11.999999999997
 30
0.0
 11
93.9999999999969
 21
17.49999999999694
 31
0.0
  0
ARC
  8
ITEM_50
 10
91.99999999999693
 20
11.99999999999699
 30
0.0
 40
2.0
 50
270.0
 51
0.0
  0
LINE
  8
ITEM_50
 10
52.99999999999687
 20
9.999999999997001
 30
0.0
 11
91.99999999999693
 21
9.999999999997001
 31
0.0
  0
POINT
  8
ITEM_HILFE
 10
33.15284654022569
 20
71.99999999999697
 30
0.0
  0
POINT
  8
ITEM_HILFE
 10
1.152846540225695
 20
71.99999999999697
 30
0.0
  0
POINT
  8
ITEM_HILFE
 10
17.15284654022569
 20
71.99999999999697
 30
0.0
  0
POINT
  8
ITEM_HILFE
 10
-2.847153459774361
 20
59.99999999999697
 30
0.0
  0
POINT
  8
ITEM_HILFE
 10
17.15284654022564
 20
59.99999999999702
 30
0.0
  0
POINT
  8
ITEM_HILFE
 10
37.15284654022563
 20
59.99999999999697
 30
0.0
  0
POINT
  8
ITEM_HILFE
 10
37.15284654022563
 20
78.99999999999697
 30
0.0
  0
POINT
  8
ITEM_HILFE
 10
17.15284654022564
 20
78.99999999999697
 30
0.0
  0
POINT
  8
ITEM_HILFE
 10
-2.847153459774361
 20
78.99999999999697
 30
0.0
  0
LINE
  8
ITEM_STPG
 10
-5.146243182014316
 20
71.99999999999697
 30
0.0
 11
39.24861118167255
 21
71.99999999999697
 31
0.0
  0
LINE
  8
ITEM_50
 10
4.652846540225695
 20
61.00000000000231
 30
0.0
 11
29.65284654022569
 21
61.00000000000231
 31
0.0
  0
LINE
  8
ITEM_50
 10
4.652846540225695
 20
75.99999999999697
 30
0.0
 11
29.65284654022569
 21
75.99999999999697
 31
0.0
  0
LINE
  8
ITEM_50
 10
29.65284654022569
 20
64.99999999999913
 30
0.0
 11
4.652846540225695
 21
64.99999999999913
 31
0.0
  0
LINE
  8
ITEM_STPG
 10
17.15284654022569
 20
83.99999999999697
 30
0.0
 11
17.15284654022569
 21
55.37612343969969
 31
0.0
  0
CIRCLE
  8
ITEM_50
 10
33.15284654022569
 20
71.99999999999697
 30
0.0
 40
3.049999999999999
  0
CIRCLE
  8
ITEM_50
 10
1.152846540225699
 20
71.99999999999697
 30
0.0
 40
3.049999999999999
  0
LINE
  8
ITEM_50
 10
-0.8471534597743045
 20
59.99999999999697
 30
0.0
 11
35.15284654022569
 21
59.99999999999697
 31
0.0
  0
LINE
  8
ITEM_50
 10
29.65284654022569
 20
78.99999999999697
 30
0.0
 11
29.65284654022569
 21
59.99999999999697
 31
0.0
  0
LINE
  8
ITEM_50
 10
4.652846540225695
 20
59.99999999999697
 30
0.0
 11
4.652846540225695
 21
78.99999999999697
 31
0.0
  0
ARC
  8
ITEM_50
 10
-0.8471534597743009
 20
76.99999999999697
 30
0.0
 40
2.0
 50
90.0
 51
180.0
  0
LINE
  8
ITEM_50
 10
-2.847153459774304
 20
61.99999999999697
 30
0.0
 11
-2.847153459774304
 21
76.99999999999697
 31
0.0
  0
ARC
  8
ITEM_50
 10
-0.8471534597743009
 20
61.99999999999697
 30
0.0
 40
2.0
 50
180.0
 51
270.0
  0
ARC
  8
ITEM_50
 10
35.15284654022569
 20
61.99999999999697
 30
0.0
 40
2.0
 50
270.0
 51
0.0
  0
LINE
  8
ITEM_50
 10
37.15284654022569
 20
76.99999999999697
 30
0.0
 11
37.15284654022569
 21
61.99999999999697
 31
0.0
  0
ARC
  8
ITEM_50
 10
35.15284654022569
 20
76.99999999999697
 30
0.0
 40
2.0
 50
0.0
 51
90.0
  0
LINE
  8
ITEM_50
 10
-0.8471534597743045
 20
78.99999999999697
 30
0.0
 11
35.15284654022569
 21
78.99999999999697
 31
0.0
  0
LINE
  8
ITEM_50
 10
93.99999999999687
 20
90.99999999999693
 30
0.0
 11
93.99999999999693
 21
126.9999999999969
 31
0.0
  0
CIRCLE
  8
ITEM_50
 10
59.99999999999693
 20
108.9999999999969
 30
0.0
 40
5.0
  0
LINE
  8
ITEM_GSTRG
 10
56.99999999999693
 20
124.9999999999968
 30
0.0
 11
50.99999999999693
 21
124.9999999999969
 31
0.0
  0
LINE
  8
ITEM_GSTRG
 10
56.99999999999693
 20
128.0499999999969
 30
0.0
 11
93.70220445304943
 21
128.0499999999967
 31
0.0
  0
LINE
  8
ITEM_GSTRG
 10
93.99999999999687
 20
121.9499999999969
 30
0.0
 11
56.9999999999969
 21
121.9499999999969
 31
0.0
  0
LINE
  8
ITEM_GSTRG
 10
56.9999999999969
 20
119.9999999999968
 30
0.0
 11
56.99999999999696
 21
128.9999999999968
 31
0.0
  0
LINE
  8
ITEM_GSTRG
 10
56.9999999999969
 20
119.9999999999968
 30
0.0
 11
50.99999999999688
 21
119.9999999999968
 31
0.0
  0
LINE
  8
ITEM_GSTRG
 10
56.9999999999969
 20
97.99999999999687
 30
0.0
 11
56.99999999999693
 21
88.99999999999687
 31
0.0
  0
LINE
  8
ITEM_GSTRG
 10
93.99999999999687
 20
96.04999999999682
 30
0.0
 11
56.9999999999969
 21
96.04999999999682
 31
0.0
  0
LINE
  8
ITEM_GSTRG
 10
56.9999999999969
 20
89.94999999999691
 30
0.0
 11
93.70220445304511
 21
89.94999999999691
 31
0.0
  0
LINE
  8
ITEM_GSTRG
 10
56.9999999999969
 20
97.99999999999687
 30
0.0
 11
50.99999999999688
 21
97.99999999999687
 31
0.0
  0
LINE
  8
ITEM_GSTRG
 10
56.9999999999969
 20
92.99999999999687
 30
0.0
 11
50.9999999999969
 21
92.99999999999687
 31
0.0
  0
POINT
  8
ITEM_HILFE
 10
50.99999999999688
 20
108.9999999999968
 30
0.0
  0
LINE
  8
ITEM_50
 10
66.0000000000077
 20
121.4999999999969
 30
0.0
 11
66.0000000000077
 21
96.49999999999693
 31
0.0
  0
LINE
  8
ITEM_50
 10
81.70333209968674
 20
121.4999999999969
 30
0.0
 11
81.70333209968674
 21
96.49999999999693
 31
0.0
  0
LINE
  8
ITEM_50
 10
79.16750277572202
 20
96.49999999999693
 30
0.0
 11
79.16750277572202
 21
121.4999999999969
 31
0.0
  0
LINE
  8
ITEM_50
 10
71.04307806184237
 20
121.4999999999969
 30
0.0
 11
71.04307806184237
 21
96.49999999999693
 31
0.0
  0
POINT
  8
ITEM_HILFE
 10
50.99999999999688
 20
92.99999999999687
 30
0.0
  0
POINT
  8
ITEM_HILFE
 10
50.99999999999688
 20
124.9999999999968
 30
0.0
  0
POINT
  8
ITEM_HILFE
 10
93.99999999999693
 20
124.9999999999968
 30
0.0
  0
POINT
  8
ITEM_HILFE
 10
93.99999999999687
 20
92.99999999999693
 30
0.0
  0
POINT
  8
ITEM_HILFE
 10
50.99999999999688
 20
108.9999999999969
 30
0.0
  0
POINT
  8
ITEM_HILFE
 10
93.99999999999687
 20
108.9999999999969
 30
0.0
  0
POINT
  8
ITEM_HILFE
 10
59.99999999999693
 20
108.9999999999969
 30
0.0
  0
POINT
  8
ITEM_HILFE
 10
93.99999999999687
 20
128.9999999999968
 30
0.0
  0
POINT
  8
ITEM_HILFE
 10
50.99999999999688
 20
128.9999999999968
 30
0.0
  0
POINT
  8
ITEM_HILFE
 10
50.99999999999688
 20
88.99999999999693
 30
0.0
  0
POINT
  8
ITEM_HILFE
 10
93.99999999999687
 20
88.99999999999693
 30
0.0
  0
LINE
  8
ITEM_STPG
 10
97.31152609952522
 20
108.9999999999969
 30
0.0
 11
47.9186057147803
 21
108.9999999999969
 31
0.0
  0
LINE
  8
ITEM_STPG
 10
97.31152609952522
 20
124.9999999999968
 30
0.0
 11
48.01785876704257
 21
124.9999999999968
 31
0.0
  0
LINE
  8
ITEM_STPG
 10
97.31152609952522
 20
92.99999999999693
 30
0.0
 11
47.9186057147803
 21
92.99999999999693
 31
0.0
  0
LINE
  8
ITEM_STPG
 10
59.99999999999693
 20
86.88864871037435
 30
0.0
 11
59.99999999999693
 21
130.97392980489
 31
0.0
  0
LINE
  8
ITEM_50
 10
50.99999999999688
 20
96.49999999999693
 30
0.0
 11
93.99999999999471
 21
96.49999999999693
 31
0.0
  0
LINE
  8
ITEM_50
 10
50.99999999999688
 20
121.4999999999969
 30
0.0
 11
93.99999999999471
 21
121.4999999999969
 31
0.0
  0
ARC
  8
ITEM_50
 10
52.99999999999688
 20
126.9999999999969
 30
0.0
 40
2.0
 50
90.0
 51
180.0
  0
LINE
  8
ITEM_50
 10
50.99999999999688
 20
90.99999999999693
 30
0.0
 11
50.99999999999688
 21
126.9999999999968
 31
0.0
  0
ARC
  8
ITEM_50
 10
52.99999999999688
 20
90.99999999999693
 30
0.0
 40
2.0
 50
180.0
 51
270.0
  0
LINE
  8
ITEM_50
 10
91.99999999999687
 20
88.99999999999693
 30
0.0
 11
52.99999999999688
 21
88.99999999999693
 31
0.0
  0
ARC
  8
ITEM_50
 10
91.99999999999687
 20
90.99999999999693
 30
0.0
 40
2.0
 50
270.0
 51
0.0
  0
ARC
  8
ITEM_50
 10
91.99999999999693
 20
126.9999999999969
 30
0.0
 40
2.0
 50
0.0
 51
90.0
  0
LINE
  8
ITEM_50
 10
52.99999999999688
 20
128.9999999999968
 30
0.0
 11
91.99999999999693
 21
128.9999999999968
 31
0.0
  0
LINE
  8
ITEM_50
 10
58.55662432702286
 20
111.4999999999969
 30
0.0
 11
57.11324865404879
 21
108.9999999999969
 31
0.0
  0
LINE
  8
ITEM_50
 10
57.11324865404879
 20
108.9999999999969
 30
0.0
 11
58.55662432702286
 21
106.4999999999969
 31
0.0
  0
LINE
  8
ITEM_50
 10
58.55662432702286
 20
106.4999999999969
 30
0.0
 11
61.443375672971
 21
106.4999999999969
 31
0.0
  0
LINE
  8
ITEM_50
 10
61.443375672971
 20
106.4999999999969
 30
0.0
 11
62.88675134594507
 21
108.9999999999969
 31
0.0
  0
LINE
  8
ITEM_50
 10
62.88675134594507
 20
108.9999999999969
 30
0.0
 11
61.443375672971
 21
111.4999999999969
 31
0.0
  0
LINE
  8
ITEM_50
 10
61.443375672971
 20
111.4999999999969
 30
0.0
 11
58.55662432702286
 21
111.4999999999969
 31
0.0
  0
ENDSEC
  0
EOF
